ISO-10303-21;
HEADER;
FILE_DESCRIPTION (( 'STEP AP203' ),
    '1' );
FILE_NAME ('051599922.STEP',
    '2022-09-30T09:53:38',
    ( '' ),
    ( '' ),
    'SwSTEP 2.0',
    'SolidWorks 2020',
    '' );
FILE_SCHEMA (( 'CONFIG_CONTROL_DESIGN' ));
ENDSEC;

DATA;
#1 = VECTOR ( 'NONE', #162, 1000.000000000000000 ) ;
#2 = VECTOR ( 'NONE', #144, 1000.000000000000000 ) ;
#3 = DIRECTION ( 'NONE',  ( 1.000000000000000000, 3.469446951953614682E-16, -0.000000000000000000 ) ) ;
#4 = CARTESIAN_POINT ( 'NONE',  ( 63.08301753315708993, 77.40811227320996579, -25.00000000000000000 ) ) ;
#5 = PERSON_AND_ORGANIZATION_ROLE ( 'creator' ) ;
#6 = APPLICATION_CONTEXT ( 'configuration controlled 3d designs of mechanical parts and assemblies' ) ;
#7 = MANIFOLD_SOLID_BREP ( 'Fillet3', #46 ) ;
#8 = APPROVAL_PERSON_ORGANIZATION ( #232, #97, #45 ) ;
#9 = CARTESIAN_POINT ( 'NONE',  ( 63.08301753315708993, 77.40811227320996579, 25.00000000000000000 ) ) ;
#10 = DIRECTION ( 'NONE',  ( 1.000000000000000000, 0.000000000000000000, -0.000000000000000000 ) ) ;
#11 = ORIENTED_EDGE ( 'NONE', *, *, #341, .T. ) ;
#12 = CARTESIAN_POINT ( 'NONE',  ( -20.00000000000000000, -3.673940397442059178E-15, 25.00000000000000000 ) ) ;
#13 = CARTESIAN_POINT ( 'NONE',  ( -16.58708462562312391, 57.99999999999999289, 25.00000000000000000 ) ) ;
#14 = CC_DESIGN_PERSON_AND_ORGANIZATION_ASSIGNMENT ( #214, #5, ( #326 ) ) ;
#15 =( LENGTH_UNIT ( ) NAMED_UNIT ( * ) SI_UNIT ( .MILLI., .METRE. ) );
#16 = DIRECTION ( 'NONE',  ( 1.000000000000000000, 0.000000000000000000, 0.000000000000000000 ) ) ;
#17 = COORDINATED_UNIVERSAL_TIME_OFFSET ( 0, 0, .AHEAD. ) ;
#18 = VERTEX_POINT ( 'NONE', #252 ) ;
#19 = ORIENTED_EDGE ( 'NONE', *, *, #107, .T. ) ;
#20 = PRODUCT_RELATED_PRODUCT_CATEGORY ( 'detail', '', ( #337 ) ) ;
#21 = AXIS2_PLACEMENT_3D ( 'NONE', #333, #181, #278 ) ;
#22 = CARTESIAN_POINT ( 'NONE',  ( -20.00000000000000000, 60.00000000000000000, -25.00000000000000000 ) ) ;
#23 = AXIS2_PLACEMENT_3D ( 'NONE', #9, #298, #275 ) ;
#24 = CC_DESIGN_PERSON_AND_ORGANIZATION_ASSIGNMENT ( #265, #112, ( #71 ) ) ;
#25 = VECTOR ( 'NONE', #338, 1000.000000000000000 ) ;
#26 = CIRCLE ( 'NONE', #146, 2.000000000000000000 ) ;
#27 = AXIS2_PLACEMENT_3D ( 'NONE', #247, #70, #92 ) ;
#28 = FACE_OUTER_BOUND ( 'NONE', #124, .T. ) ;
#29 = DATE_AND_TIME ( #217, #54 ) ;
#30 = EDGE_CURVE ( 'NONE', #98, #48, #295, .T. ) ;
#31 = CARTESIAN_POINT ( 'NONE',  ( -20.00000000000000000, 60.00000000000000000, 25.00000000000000000 ) ) ;
#32 = PERSON_AND_ORGANIZATION_ROLE ( 'creator' ) ;
#33 = CARTESIAN_POINT ( 'NONE',  ( 20.00000000000000000, 8.572527594031471415E-15, 25.00000000000000000 ) ) ;
#34 = LINE ( 'NONE', #33, #90 ) ;
#35 = EDGE_CURVE ( 'NONE', #187, #18, #127, .T. ) ;
#36 = LINE ( 'NONE', #122, #2 ) ;
#37 = DIRECTION ( 'NONE',  ( 1.000000000000000000, 3.469446951953614189E-15, 0.000000000000000000 ) ) ;
#38 = LOCAL_TIME ( 10, 53, 38.00000000000000000, #261 ) ;
#39 = VERTEX_POINT ( 'NONE', #75 ) ;
#40 = ADVANCED_FACE ( 'NONE', ( #209 ), #306, .T. ) ;
#41 = CYLINDRICAL_SURFACE ( 'NONE', #262, 2.000000000000001776 ) ;
#42 = VERTEX_POINT ( 'NONE', #253 ) ;
#43 = DIRECTION ( 'NONE',  ( 1.000000000000000000, 0.000000000000000000, 0.000000000000000000 ) ) ;
#44 = ORIENTED_EDGE ( 'NONE', *, *, #107, .F. ) ;
#45 = APPROVAL_ROLE ( '' ) ;
#46 = CLOSED_SHELL ( 'NONE', ( #237, #313, #40, #226, #193, #215, #331, #145, #248 ) ) ;
#47 = CC_DESIGN_APPROVAL ( #81, ( #71 ) ) ;
#48 = VERTEX_POINT ( 'NONE', #125 ) ;
#49 = EDGE_CURVE ( 'NONE', #257, #42, #34, .T. ) ;
#50 = ORIENTED_EDGE ( 'NONE', *, *, #190, .T. ) ;
#51 = UNCERTAINTY_MEASURE_WITH_UNIT (LENGTH_MEASURE( 1.000000000000000082E-05 ), #15, 'distance_accuracy_value', 'NONE');
#52 = ORIENTED_EDGE ( 'NONE', *, *, #223, .F. ) ;
#53 = AXIS2_PLACEMENT_3D ( 'NONE', #213, #245, #108 ) ;
#54 = LOCAL_TIME ( 10, 53, 38.00000000000000000, #239 ) ;
#55 = CC_DESIGN_PERSON_AND_ORGANIZATION_ASSIGNMENT ( #152, #254, ( #337 ) ) ;
#56 = CC_DESIGN_DATE_AND_TIME_ASSIGNMENT ( #171, #289, ( #71 ) ) ;
#57 = CALENDAR_DATE ( 2022, 30, 9 ) ;
#58 = LINE ( 'NONE', #132, #281 ) ;
#59 = LOCAL_TIME ( 10, 53, 38.00000000000000000, #340 ) ;
#60 = CARTESIAN_POINT ( 'NONE',  ( -14.64391140223823840, 58.47336859202950876, 25.00000000000000000 ) ) ;
#61 = APPROVAL_DATE_TIME ( #102, #97 ) ;
#62 = DIRECTION ( 'NONE',  ( -0.000000000000000000, -0.000000000000000000, -1.000000000000000000 ) ) ;
#63 = CARTESIAN_POINT ( 'NONE',  ( -20.00000000000000000, -3.673940397442059178E-15, 25.00000000000000000 ) ) ;
#64 = CIRCLE ( 'NONE', #83, 1.999999999999998224 ) ;
#65 = ORIENTED_EDGE ( 'NONE', *, *, #264, .T. ) ;
#66 = PLANE ( 'NONE',  #131 ) ;
#67 = LINE ( 'NONE', #251, #186 ) ;
#68 = VERTEX_POINT ( 'NONE', #269 ) ;
#69 =( NAMED_UNIT ( * ) PLANE_ANGLE_UNIT ( ) SI_UNIT ( $, .RADIAN. ) );
#70 = DIRECTION ( 'NONE',  ( 0.000000000000000000, 1.000000000000000000, 0.000000000000000000 ) ) ;
#71 = SECURITY_CLASSIFICATION ( '', '', #287 ) ;
#72 = CC_DESIGN_SECURITY_CLASSIFICATION ( #71, ( #326 ) ) ;
#73 = ORIENTED_EDGE ( 'NONE', *, *, #255, .T. ) ;
#74 = LINE ( 'NONE', #12, #119 ) ;
#75 = CARTESIAN_POINT ( 'NONE',  ( -20.00000000000000000, -3.673940397442059178E-15, -25.00000000000000000 ) ) ;
#76 = ORIENTED_EDGE ( 'NONE', *, *, #279, .T. ) ;
#77 = ORIENTED_EDGE ( 'NONE', *, *, #166, .T. ) ;
#78 = ORIENTED_EDGE ( 'NONE', *, *, #336, .F. ) ;
#79 = CARTESIAN_POINT ( 'NONE',  ( 19.99999999999999645, 8.913429778106371160, 25.00000000000000000 ) ) ;
#80 = PERSON_AND_ORGANIZATION_ROLE ( 'design_supplier' ) ;
#81 = APPROVAL ( #161, 'UNSPECIFIED' ) ;
#82 = DIRECTION ( 'NONE',  ( 1.000000000000000000, 0.000000000000000000, 0.000000000000000000 ) ) ;
#83 = AXIS2_PLACEMENT_3D ( 'NONE', #314, #196, #82 ) ;
#84 = DIRECTION ( 'NONE',  ( -1.000000000000000000, -3.061616997868382648E-16, 0.000000000000000000 ) ) ;
#85 = COORDINATED_UNIVERSAL_TIME_OFFSET ( 0, 0, .AHEAD. ) ;
#86 = DIRECTION ( 'NONE',  ( -1.000000000000000000, 0.000000000000000000, 0.000000000000000000 ) ) ;
#87 = CARTESIAN_POINT ( 'NONE',  ( 19.09958579349164154, 10.58403179018206686, 25.00000000000000000 ) ) ;
#88 = DATE_AND_TIME ( #292, #59 ) ;
#89 = CC_DESIGN_PERSON_AND_ORGANIZATION_ASSIGNMENT ( #294, #32, ( #182 ) ) ;
#90 = VECTOR ( 'NONE', #84, 1000.000000000000000 ) ;
#91 = VERTEX_POINT ( 'NONE', #263 ) ;
#92 = DIRECTION ( 'NONE',  ( 0.000000000000000000, -0.000000000000000000, 1.000000000000000000 ) ) ;
#93 = ORIENTED_EDGE ( 'NONE', *, *, #255, .F. ) ;
#94 = APPLICATION_CONTEXT ( 'configuration controlled 3d designs of mechanical parts and assemblies' ) ;
#95 = LINE ( 'NONE', #225, #334 ) ;
#96 = ORIENTED_EDGE ( 'NONE', *, *, #129, .T. ) ;
#97 = APPROVAL ( #329, 'UNSPECIFIED' ) ;
#98 = VERTEX_POINT ( 'NONE', #216 ) ;
#99 = ORIENTED_EDGE ( 'NONE', *, *, #137, .F. ) ;
#100 = CARTESIAN_POINT ( 'NONE',  ( -16.58708462562312391, 57.99999999999999289, -25.00000000000000000 ) ) ;
#101 = EDGE_LOOP ( 'NONE', ( #233, #246, #73, #19 ) ) ;
#102 = DATE_AND_TIME ( #126, #204 ) ;
#103 = EDGE_LOOP ( 'NONE', ( #229, #227, #151, #330 ) ) ;
#104 = CIRCLE ( 'NONE', #53, 1.999999999999998224 ) ;
#105 = AXIS2_PLACEMENT_3D ( 'NONE', #207, #175, #273 ) ;
#106 = ORIENTED_EDGE ( 'NONE', *, *, #114, .T. ) ;
#107 = EDGE_CURVE ( 'NONE', #257, #18, #191, .T. ) ;
#108 = DIRECTION ( 'NONE',  ( 1.000000000000000000, 4.336808689942021680E-15, 0.000000000000000000 ) ) ;
#109 = APPROVAL_DATE_TIME ( #88, #260 ) ;
#110 = EDGE_CURVE ( 'NONE', #173, #234, #64, .T. ) ;
#111 = PLANE ( 'NONE',  #212 ) ;
#112 = PERSON_AND_ORGANIZATION_ROLE ( 'classification_officer' ) ;
#113 = CARTESIAN_POINT ( 'NONE',  ( 20.00000000000000000, 8.572527594031471415E-15, 25.00000000000000000 ) ) ;
#114 = EDGE_CURVE ( 'NONE', #91, #153, #170, .T. ) ;
#115 = PLANE ( 'NONE',  #195 ) ;
#116 = LINE ( 'NONE', #22, #224 ) ;
#117 = CC_DESIGN_PERSON_AND_ORGANIZATION_ASSIGNMENT ( #310, #80, ( #326 ) ) ;
#118 = PLANE ( 'NONE',  #27 ) ;
#119 = VECTOR ( 'NONE', #230, 1000.000000000000000 ) ;
#120 = CC_DESIGN_APPROVAL ( #260, ( #326 ) ) ;
#121 = DIRECTION ( 'NONE',  ( -0.000000000000000000, -0.000000000000000000, -1.000000000000000000 ) ) ;
#122 = CARTESIAN_POINT ( 'NONE',  ( -16.58708462562312391, 60.00000000000000000, 25.00000000000000000 ) ) ;
#123 = ORIENTED_EDGE ( 'NONE', *, *, #279, .F. ) ;
#124 = EDGE_LOOP ( 'NONE', ( #177, #231, #304, #250 ) ) ;
#125 = CARTESIAN_POINT ( 'NONE',  ( -16.58708462562312391, 60.00000000000000000, 25.00000000000000000 ) ) ;
#126 = CALENDAR_DATE ( 2022, 30, 9 ) ;
#127 = LINE ( 'NONE', #303, #317 ) ;
#128 = EDGE_LOOP ( 'NONE', ( #123, #44, #143, #11 ) ) ;
#129 = EDGE_CURVE ( 'NONE', #203, #68, #58, .T. ) ;
#130 = AXIS2_PLACEMENT_3D ( 'NONE', #218, #266, #136 ) ;
#131 = AXIS2_PLACEMENT_3D ( 'NONE', #271, #272, #10 ) ;
#132 = CARTESIAN_POINT ( 'NONE',  ( -20.00000000000000000, 60.00000000000000000, 25.00000000000000000 ) ) ;
#133 = APPROVAL_ROLE ( '' ) ;
#134 = CARTESIAN_POINT ( 'NONE',  ( 19.99999999999999645, 10.00000000000000711, 25.00000000000000000 ) ) ;
#135 = PERSON_AND_ORGANIZATION ( #160, #219 ) ;
#136 = DIRECTION ( 'NONE',  ( 1.000000000000000000, 0.000000000000000000, -0.000000000000000000 ) ) ;
#137 = EDGE_CURVE ( 'NONE', #91, #98, #339, .T. ) ;
#138 = DIRECTION ( 'NONE',  ( -0.000000000000000000, -0.000000000000000000, -1.000000000000000000 ) ) ;
#139 = LOCAL_TIME ( 10, 53, 38.00000000000000000, #85 ) ;
#140 = DIRECTION ( 'NONE',  ( 1.000000000000000000, 3.061616997868383141E-16, 0.000000000000000000 ) ) ;
#141 = PERSON_AND_ORGANIZATION ( #160, #219 ) ;
#142 = ORIENTED_EDGE ( 'NONE', *, *, #223, .T. ) ;
#143 = ORIENTED_EDGE ( 'NONE', *, *, #49, .T. ) ;
#144 = DIRECTION ( 'NONE',  ( 0.000000000000000000, 0.000000000000000000, -1.000000000000000000 ) ) ;
#145 = ADVANCED_FACE ( 'NONE', ( #28 ), #222, .T. ) ;
#146 = AXIS2_PLACEMENT_3D ( 'NONE', #100, #318, #37 ) ;
#147 = DIRECTION ( 'NONE',  ( 3.469446951953614682E-16, -1.000000000000000000, 0.000000000000000000 ) ) ;
#148 = CARTESIAN_POINT ( 'NONE',  ( 20.00000000000000000, 8.572527594031471415E-15, 25.00000000000000000 ) ) ;
#149 = ORIENTED_EDGE ( 'NONE', *, *, #166, .F. ) ;
#150 = FACE_OUTER_BOUND ( 'NONE', #179, .T. ) ;
#151 = ORIENTED_EDGE ( 'NONE', *, *, #114, .F. ) ;
#152 = PERSON_AND_ORGANIZATION ( #160, #219 ) ;
#153 = VERTEX_POINT ( 'NONE', #315 ) ;
#154 = EDGE_CURVE ( 'NONE', #39, #68, #198, .T. ) ;
#155 = ORIENTED_EDGE ( 'NONE', *, *, #154, .T. ) ;
#156 = FACE_OUTER_BOUND ( 'NONE', #319, .T. ) ;
#157 = VECTOR ( 'NONE', #205, 1000.000000000000000 ) ;
#158 = APPROVAL_PERSON_ORGANIZATION ( #141, #81, #133 ) ;
#159 = EDGE_CURVE ( 'NONE', #153, #187, #104, .T. ) ;
#160 = PERSON ( 'UNSPECIFIED', 'UNSPECIFIED', 'UNSPECIFIED', ('UNSPECIFIED'), ('UNSPECIFIED'), ('UNSPECIFIED') ) ;
#161 = APPROVAL_STATUS ( 'not_yet_approved' ) ;
#162 = DIRECTION ( 'NONE',  ( 0.000000000000000000, 0.000000000000000000, 1.000000000000000000 ) ) ;
#163 = CIRCLE ( 'NONE', #105, 80.00000000000001421 ) ;
#164 = DATE_AND_TIME ( #57, #139 ) ;
#165 = PLANE ( 'NONE',  #130 ) ;
#166 = EDGE_CURVE ( 'NONE', #203, #48, #293, .T. ) ;
#167 = DIRECTION ( 'NONE',  ( 1.000000000000000000, 0.000000000000000000, 0.000000000000000000 ) ) ;
#168 = APPROVAL_ROLE ( '' ) ;
#169 = DIRECTION ( 'NONE',  ( 3.061616997868383141E-16, -1.000000000000000000, 0.000000000000000000 ) ) ;
#170 = CIRCLE ( 'NONE', #185, 80.00000000000001421 ) ;
#171 = DATE_AND_TIME ( #192, #38 ) ;
#172 =( GEOMETRIC_REPRESENTATION_CONTEXT ( 3 ) GLOBAL_UNCERTAINTY_ASSIGNED_CONTEXT ( ( #51 ) ) GLOBAL_UNIT_ASSIGNED_CONTEXT ( ( #15, #69, #323 ) ) REPRESENTATION_CONTEXT ( 'NONE', 'WORKASPACE' ) );
#173 = VERTEX_POINT ( 'NONE', #79 ) ;
#174 = DIRECTION ( 'NONE',  ( -0.000000000000000000, -0.000000000000000000, 1.000000000000000000 ) ) ;
#175 = DIRECTION ( 'NONE',  ( 0.000000000000000000, 0.000000000000000000, 1.000000000000000000 ) ) ;
#176 = LINE ( 'NONE', #321, #157 ) ;
#177 = ORIENTED_EDGE ( 'NONE', *, *, #110, .F. ) ;
#178 = AXIS2_PLACEMENT_3D ( 'NONE', #228, #180, #43 ) ;
#179 = EDGE_LOOP ( 'NONE', ( #77, #276, #188, #322 ) ) ;
#180 = DIRECTION ( 'NONE',  ( 0.000000000000000000, 0.000000000000000000, 1.000000000000000000 ) ) ;
#181 = DIRECTION ( 'NONE',  ( -1.000000000000000000, 0.000000000000000000, 0.000000000000000000 ) ) ;
#182 = PRODUCT_DEFINITION ( 'UNKNOWN', '', #326, #335 ) ;
#183 = APPLICATION_PROTOCOL_DEFINITION ( 'international standard', 'config_control_design', 1994, #6 ) ;
#184 = ORIENTED_EDGE ( 'NONE', *, *, #264, .F. ) ;
#185 = AXIS2_PLACEMENT_3D ( 'NONE', #4, #288, #309 ) ;
#186 = VECTOR ( 'NONE', #147, 1000.000000000000000 ) ;
#187 = VERTEX_POINT ( 'NONE', #194 ) ;
#188 = ORIENTED_EDGE ( 'NONE', *, *, #190, .F. ) ;
#189 = APPROVAL_PERSON_ORGANIZATION ( #135, #260, #168 ) ;
#190 = EDGE_CURVE ( 'NONE', #68, #208, #116, .T. ) ;
#191 = LINE ( 'NONE', #113, #332 ) ;
#192 = CALENDAR_DATE ( 2022, 30, 9 ) ;
#193 = ADVANCED_FACE ( 'NONE', ( #268 ), #111, .T. ) ;
#194 = CARTESIAN_POINT ( 'NONE',  ( 19.99999999999999645, 8.913429778106371160, -25.00000000000000000 ) ) ;
#195 = AXIS2_PLACEMENT_3D ( 'NONE', #221, #169, #140 ) ;
#196 = DIRECTION ( 'NONE',  ( 0.000000000000000000, 0.000000000000000000, 1.000000000000000000 ) ) ;
#197 = APPROVAL_STATUS ( 'not_yet_approved' ) ;
#198 = LINE ( 'NONE', #342, #25 ) ;
#199 = FACE_OUTER_BOUND ( 'NONE', #103, .T. ) ;
#200 = FACE_OUTER_BOUND ( 'NONE', #324, .T. ) ;
#201 = ORIENTED_EDGE ( 'NONE', *, *, #341, .F. ) ;
#202 = LINE ( 'NONE', #299, #235 ) ;
#203 = VERTEX_POINT ( 'NONE', #290 ) ;
#204 = LOCAL_TIME ( 10, 53, 38.00000000000000000, #17 ) ;
#205 = DIRECTION ( 'NONE',  ( -1.000000000000000000, -3.061616997868382648E-16, 0.000000000000000000 ) ) ;
#206 = DIRECTION ( 'NONE',  ( 0.000000000000000000, 0.000000000000000000, 1.000000000000000000 ) ) ;
#207 = CARTESIAN_POINT ( 'NONE',  ( 63.08301753315708993, 77.40811227320996579, 25.00000000000000000 ) ) ;
#208 = VERTEX_POINT ( 'NONE', #316 ) ;
#209 = FACE_OUTER_BOUND ( 'NONE', #270, .T. ) ;
#210 = ORIENTED_EDGE ( 'NONE', *, *, #35, .T. ) ;
#211 = ADVANCED_BREP_SHAPE_REPRESENTATION ( '051599922', ( #7, #178 ), #172 ) ;
#212 = AXIS2_PLACEMENT_3D ( 'NONE', #134, #3, #240 ) ;
#213 = CARTESIAN_POINT ( 'NONE',  ( 18.00000000000000000, 8.913429778106371160, -25.00000000000000000 ) ) ;
#214 = PERSON_AND_ORGANIZATION ( #160, #219 ) ;
#215 = ADVANCED_FACE ( 'NONE', ( #156 ), #165, .T. ) ;
#216 = CARTESIAN_POINT ( 'NONE',  ( -14.64391140223823840, 58.47336859202950876, 25.00000000000000000 ) ) ;
#217 = CALENDAR_DATE ( 2022, 30, 9 ) ;
#218 = CARTESIAN_POINT ( 'NONE',  ( 63.08301753315708993, 77.40811227320996579, 25.00000000000000000 ) ) ;
#219 = ORGANIZATION ( 'UNSPECIFIED', 'UNSPECIFIED', '' ) ;
#220 = SHAPE_DEFINITION_REPRESENTATION ( #244, #211 ) ;
#221 = CARTESIAN_POINT ( 'NONE',  ( 20.00000000000000000, 8.572527594031471415E-15, 25.00000000000000000 ) ) ;
#222 = CYLINDRICAL_SURFACE ( 'NONE', #259, 1.999999999999998224 ) ;
#223 = EDGE_CURVE ( 'NONE', #42, #203, #258, .T. ) ;
#224 = VECTOR ( 'NONE', #167, 1000.000000000000000 ) ;
#225 = CARTESIAN_POINT ( 'NONE',  ( 19.09958579349164154, 10.58403179018206686, 25.00000000000000000 ) ) ;
#226 = ADVANCED_FACE ( 'NONE', ( #236 ), #115, .T. ) ;
#227 = ORIENTED_EDGE ( 'NONE', *, *, #284, .T. ) ;
#228 = CARTESIAN_POINT ( 'NONE',  ( 0.000000000000000000, 0.000000000000000000, 0.000000000000000000 ) ) ;
#229 = ORIENTED_EDGE ( 'NONE', *, *, #320, .T. ) ;
#230 = DIRECTION ( 'NONE',  ( -0.000000000000000000, -0.000000000000000000, -1.000000000000000000 ) ) ;
#231 = ORIENTED_EDGE ( 'NONE', *, *, #308, .F. ) ;
#232 = PERSON_AND_ORGANIZATION ( #160, #219 ) ;
#233 = ORIENTED_EDGE ( 'NONE', *, *, #35, .F. ) ;
#234 = VERTEX_POINT ( 'NONE', #87 ) ;
#235 = VECTOR ( 'NONE', #174, 1000.000000000000000 ) ;
#236 = FACE_OUTER_BOUND ( 'NONE', #128, .T. ) ;
#237 = ADVANCED_FACE ( 'NONE', ( #199 ), #296, .F. ) ;
#238 = AXIS2_PLACEMENT_3D ( 'NONE', #13, #206, #16 ) ;
#239 = COORDINATED_UNIVERSAL_TIME_OFFSET ( 0, 0, .AHEAD. ) ;
#240 = DIRECTION ( 'NONE',  ( -3.469446951953614682E-16, 1.000000000000000000, 0.000000000000000000 ) ) ;
#241 = CARTESIAN_POINT ( 'NONE',  ( 18.00000000000000000, 8.913429778106371160, 25.00000000000000000 ) ) ;
#242 = DATE_TIME_ROLE ( 'creation_date' ) ;
#243 = DIRECTION ( 'NONE',  ( 1.000000000000000000, 0.000000000000000000, 0.000000000000000000 ) ) ;
#244 = PRODUCT_DEFINITION_SHAPE ( 'NONE', 'NONE',  #182 ) ;
#245 = DIRECTION ( 'NONE',  ( -0.000000000000000000, -0.000000000000000000, -1.000000000000000000 ) ) ;
#246 = ORIENTED_EDGE ( 'NONE', *, *, #308, .T. ) ;
#247 = CARTESIAN_POINT ( 'NONE',  ( -20.00000000000000000, 60.00000000000000000, 25.00000000000000000 ) ) ;
#248 = ADVANCED_FACE ( 'NONE', ( #200 ), #41, .T. ) ;
#249 = FACE_OUTER_BOUND ( 'NONE', #327, .T. ) ;
#250 = ORIENTED_EDGE ( 'NONE', *, *, #284, .F. ) ;
#251 = CARTESIAN_POINT ( 'NONE',  ( 19.99999999999999645, 10.00000000000000711, 25.00000000000000000 ) ) ;
#252 = CARTESIAN_POINT ( 'NONE',  ( 20.00000000000000000, 8.572527594031471415E-15, -25.00000000000000000 ) ) ;
#253 = CARTESIAN_POINT ( 'NONE',  ( -20.00000000000000000, -3.673940397442059178E-15, 25.00000000000000000 ) ) ;
#254 = PERSON_AND_ORGANIZATION_ROLE ( 'design_owner' ) ;
#255 = EDGE_CURVE ( 'NONE', #173, #257, #67, .T. ) ;
#256 = DIRECTION ( 'NONE',  ( 3.469446951953614682E-16, -1.000000000000000000, 0.000000000000000000 ) ) ;
#257 = VERTEX_POINT ( 'NONE', #148 ) ;
#258 = LINE ( 'NONE', #63, #312 ) ;
#259 = AXIS2_PLACEMENT_3D ( 'NONE', #241, #138, #86 ) ;
#260 = APPROVAL ( #197, 'UNSPECIFIED' ) ;
#261 = COORDINATED_UNIVERSAL_TIME_OFFSET ( 0, 0, .AHEAD. ) ;
#262 = AXIS2_PLACEMENT_3D ( 'NONE', #325, #121, #302 ) ;
#263 = CARTESIAN_POINT ( 'NONE',  ( -14.64391140223823840, 58.47336859202950876, -25.00000000000000000 ) ) ;
#264 = EDGE_CURVE ( 'NONE', #208, #91, #26, .T. ) ;
#265 = PERSON_AND_ORGANIZATION ( #160, #219 ) ;
#266 = DIRECTION ( 'NONE',  ( 0.000000000000000000, 0.000000000000000000, 1.000000000000000000 ) ) ;
#267 = APPROVAL_DATE_TIME ( #29, #81 ) ;
#268 = FACE_OUTER_BOUND ( 'NONE', #101, .T. ) ;
#269 = CARTESIAN_POINT ( 'NONE',  ( -20.00000000000000000, 60.00000000000000000, -25.00000000000000000 ) ) ;
#270 = EDGE_LOOP ( 'NONE', ( #301, #201, #142, #96 ) ) ;
#271 = CARTESIAN_POINT ( 'NONE',  ( 63.08301753315708993, 77.40811227320996579, -25.00000000000000000 ) ) ;
#272 = DIRECTION ( 'NONE',  ( 0.000000000000000000, 0.000000000000000000, 1.000000000000000000 ) ) ;
#273 = DIRECTION ( 'NONE',  ( 1.000000000000000000, 0.000000000000000000, 0.000000000000000000 ) ) ;
#274 = VECTOR ( 'NONE', #243, 1000.000000000000000 ) ;
#275 = DIRECTION ( 'NONE',  ( -1.000000000000000000, 0.000000000000000000, 0.000000000000000000 ) ) ;
#276 = ORIENTED_EDGE ( 'NONE', *, *, #336, .T. ) ;
#277 = DIRECTION ( 'NONE',  ( -0.000000000000000000, -0.000000000000000000, -1.000000000000000000 ) ) ;
#278 = DIRECTION ( 'NONE',  ( 0.000000000000000000, 0.000000000000000000, 1.000000000000000000 ) ) ;
#279 = EDGE_CURVE ( 'NONE', #18, #39, #176, .T. ) ;
#280 = MECHANICAL_CONTEXT ( 'NONE', #94, 'mechanical' ) ;
#281 = VECTOR ( 'NONE', #62, 1000.000000000000000 ) ;
#282 = ORIENTED_EDGE ( 'NONE', *, *, #159, .T. ) ;
#283 = ORIENTED_EDGE ( 'NONE', *, *, #30, .T. ) ;
#284 = EDGE_CURVE ( 'NONE', #234, #153, #95, .T. ) ;
#285 = ORIENTED_EDGE ( 'NONE', *, *, #110, .T. ) ;
#286 = CC_DESIGN_APPROVAL ( #97, ( #182 ) ) ;
#287 = SECURITY_CLASSIFICATION_LEVEL ( 'unclassified' ) ;
#288 = DIRECTION ( 'NONE',  ( 0.000000000000000000, 0.000000000000000000, 1.000000000000000000 ) ) ;
#289 = DATE_TIME_ROLE ( 'classification_date' ) ;
#290 = CARTESIAN_POINT ( 'NONE',  ( -20.00000000000000000, 60.00000000000000000, 25.00000000000000000 ) ) ;
#291 = DIRECTION ( 'NONE',  ( 0.000000000000000000, 1.000000000000000000, 0.000000000000000000 ) ) ;
#292 = CALENDAR_DATE ( 2022, 30, 9 ) ;
#293 = LINE ( 'NONE', #31, #274 ) ;
#294 = PERSON_AND_ORGANIZATION ( #160, #219 ) ;
#295 = CIRCLE ( 'NONE', #238, 2.000000000000000000 ) ;
#296 = CYLINDRICAL_SURFACE ( 'NONE', #23, 80.00000000000000000 ) ;
#297 = ORIENTED_EDGE ( 'NONE', *, *, #30, .F. ) ;
#298 = DIRECTION ( 'NONE',  ( -0.000000000000000000, -0.000000000000000000, -1.000000000000000000 ) ) ;
#299 = CARTESIAN_POINT ( 'NONE',  ( 19.99999999999999645, 8.913429778106371160, 25.00000000000000000 ) ) ;
#300 = APPLICATION_PROTOCOL_DEFINITION ( 'international standard', 'config_control_design', 1994, #94 ) ;
#301 = ORIENTED_EDGE ( 'NONE', *, *, #154, .F. ) ;
#302 = DIRECTION ( 'NONE',  ( -1.000000000000000000, 0.000000000000000000, 0.000000000000000000 ) ) ;
#303 = CARTESIAN_POINT ( 'NONE',  ( 19.99999999999999645, 10.00000000000000711, -25.00000000000000000 ) ) ;
#304 = ORIENTED_EDGE ( 'NONE', *, *, #159, .F. ) ;
#305 = CC_DESIGN_DATE_AND_TIME_ASSIGNMENT ( #164, #242, ( #182 ) ) ;
#306 = PLANE ( 'NONE',  #21 ) ;
#307 = ORIENTED_EDGE ( 'NONE', *, *, #320, .F. ) ;
#308 = EDGE_CURVE ( 'NONE', #187, #173, #202, .T. ) ;
#309 = DIRECTION ( 'NONE',  ( 1.000000000000000000, 0.000000000000000000, 0.000000000000000000 ) ) ;
#310 = PERSON_AND_ORGANIZATION ( #160, #219 ) ;
#311 = DIRECTION ( 'NONE',  ( -0.000000000000000000, -0.000000000000000000, -1.000000000000000000 ) ) ;
#312 = VECTOR ( 'NONE', #291, 1000.000000000000000 ) ;
#313 = ADVANCED_FACE ( 'NONE', ( #150 ), #118, .T. ) ;
#314 = CARTESIAN_POINT ( 'NONE',  ( 18.00000000000000000, 8.913429778106371160, 25.00000000000000000 ) ) ;
#315 = CARTESIAN_POINT ( 'NONE',  ( 19.09958579349164154, 10.58403179018206686, -25.00000000000000000 ) ) ;
#316 = CARTESIAN_POINT ( 'NONE',  ( -16.58708462562312391, 60.00000000000000000, -25.00000000000000000 ) ) ;
#317 = VECTOR ( 'NONE', #256, 1000.000000000000000 ) ;
#318 = DIRECTION ( 'NONE',  ( -0.000000000000000000, -0.000000000000000000, -1.000000000000000000 ) ) ;
#319 = EDGE_LOOP ( 'NONE', ( #93, #285, #307, #283, #149, #52, #328 ) ) ;
#320 = EDGE_CURVE ( 'NONE', #98, #234, #163, .T. ) ;
#321 = CARTESIAN_POINT ( 'NONE',  ( 20.00000000000000000, 8.572527594031471415E-15, -25.00000000000000000 ) ) ;
#322 = ORIENTED_EDGE ( 'NONE', *, *, #129, .F. ) ;
#323 =( NAMED_UNIT ( * ) SI_UNIT ( $, .STERADIAN. ) SOLID_ANGLE_UNIT ( ) );
#324 = EDGE_LOOP ( 'NONE', ( #297, #99, #184, #78 ) ) ;
#325 = CARTESIAN_POINT ( 'NONE',  ( -16.58708462562312391, 57.99999999999999289, 25.00000000000000000 ) ) ;
#326 = PRODUCT_DEFINITION_FORMATION_WITH_SPECIFIED_SOURCE ( 'ANY', '', #337, .NOT_KNOWN. ) ;
#327 = EDGE_LOOP ( 'NONE', ( #106, #282, #210, #76, #155, #50, #65 ) ) ;
#328 = ORIENTED_EDGE ( 'NONE', *, *, #49, .F. ) ;
#329 = APPROVAL_STATUS ( 'not_yet_approved' ) ;
#330 = ORIENTED_EDGE ( 'NONE', *, *, #137, .T. ) ;
#331 = ADVANCED_FACE ( 'NONE', ( #249 ), #66, .F. ) ;
#332 = VECTOR ( 'NONE', #311, 1000.000000000000000 ) ;
#333 = CARTESIAN_POINT ( 'NONE',  ( -20.00000000000000000, -3.673940397442059178E-15, 25.00000000000000000 ) ) ;
#334 = VECTOR ( 'NONE', #277, 1000.000000000000000 ) ;
#335 = DESIGN_CONTEXT ( 'detailed design', #6, 'design' ) ;
#336 = EDGE_CURVE ( 'NONE', #48, #208, #36, .T. ) ;
#337 = PRODUCT ( '051599922', '051599922', '', ( #280 ) ) ;
#338 = DIRECTION ( 'NONE',  ( 0.000000000000000000, 1.000000000000000000, 0.000000000000000000 ) ) ;
#339 = LINE ( 'NONE', #60, #1 ) ;
#340 = COORDINATED_UNIVERSAL_TIME_OFFSET ( 0, 0, .AHEAD. ) ;
#341 = EDGE_CURVE ( 'NONE', #42, #39, #74, .T. ) ;
#342 = CARTESIAN_POINT ( 'NONE',  ( -20.00000000000000000, -3.673940397442059178E-15, -25.00000000000000000 ) ) ;
ENDSEC;
END-ISO-10303-21;
